ISO-10303-21;
HEADER;
FILE_DESCRIPTION (( 'STEP AP203' ),
    '1' );
FILE_NAME ('Q-OZHWP-R2-12.7-266-M.STEP',
    '2020-12-22T09:13:47',
    ( '' ),
    ( '' ),
    'SwSTEP 2.0',
    'SolidWorks 2020',
    '' );
FILE_SCHEMA (( 'CONFIG_CONTROL_DESIGN' ));
ENDSEC;

DATA;
#1 = EDGE_LOOP ( 'NONE', ( #261, #3, #112, #29 ) ) ;
#2 = AXIS2_PLACEMENT_3D ( 'NONE', #13, #244, #121 ) ;
#3 = ORIENTED_EDGE ( 'NONE', *, *, #330, .T. ) ;
#4 = DIRECTION ( 'NONE',  ( -1.000000000000000000, -0.000000000000000000, -0.000000000000000000 ) ) ;
#5 = CARTESIAN_POINT ( 'NONE',  ( 3.000000000000000888, 0.000000000000000000, 0.000000000000000000 ) ) ;
#6 = APPROVAL_ROLE ( '' ) ;
#7 = PLANE ( 'NONE',  #128 ) ;
#8 = CARTESIAN_POINT ( 'NONE',  ( -1.500000000000000444, 7.776507174585692163E-16, -6.349999999999999645 ) ) ;
#9 = FACE_BOUND ( 'NONE', #269, .T. ) ;
#10 = DIRECTION ( 'NONE',  ( -1.000000000000000000, 0.000000000000000000, -0.000000000000000000 ) ) ;
#11 = AXIS2_PLACEMENT_3D ( 'NONE', #321, #90, #203 ) ;
#12 = DIRECTION ( 'NONE',  ( 0.000000000000000000, 0.000000000000000000, -1.000000000000000000 ) ) ;
#13 = CARTESIAN_POINT ( 'NONE',  ( 1.500000000000000888, 0.000000000000000000, 0.000000000000000000 ) ) ;
#14 = DIRECTION ( 'NONE',  ( 0.000000000000000000, 0.000000000000000000, 1.000000000000000000 ) ) ;
#15 = DIRECTION ( 'NONE',  ( 0.000000000000000000, 0.000000000000000000, 1.000000000000000000 ) ) ;
#16 = CARTESIAN_POINT ( 'NONE',  ( -1.614212418857619014, 0.000000000000000000, 0.000000000000000000 ) ) ;
#17 = EDGE_CURVE ( 'NONE', #213, #51, #173, .T. ) ;
#18 = VECTOR ( 'NONE', #4, 1000.000000000000000 ) ;
#19 = DIRECTION ( 'NONE',  ( -1.000000000000000000, -0.000000000000000000, -0.000000000000000000 ) ) ;
#20 = LOCAL_TIME ( 17, 13, 47.00000000000000000, #68 ) ;
#21 = AXIS2_PLACEMENT_3D ( 'NONE', #142, #147, #93 ) ;
#22 = APPLICATION_CONTEXT ( 'configuration controlled 3d designs of mechanical parts and assemblies' ) ;
#23 = CARTESIAN_POINT ( 'NONE',  ( 0.000000000000000000, 0.000000000000000000, 0.000000000000000000 ) ) ;
#24 = APPROVAL_DATE_TIME ( #190, #292 ) ;
#25 = CC_DESIGN_DATE_AND_TIME_ASSIGNMENT ( #198, #216, ( #165 ) ) ;
#26 = APPROVAL_STATUS ( 'not_yet_approved' ) ;
#27 = EDGE_LOOP ( 'NONE', ( #75, #211, #313, #277 ) ) ;
#28 = AXIS2_PLACEMENT_3D ( 'NONE', #148, #250, #319 ) ;
#29 = ORIENTED_EDGE ( 'NONE', *, *, #275, .F. ) ;
#30 = ADVANCED_FACE ( 'NONE', ( #246, #61 ), #239, .F. ) ;
#31 = EDGE_LOOP ( 'NONE', ( #287, #214 ) ) ;
#32 = DIRECTION ( 'NONE',  ( -1.000000000000000000, -0.000000000000000000, -0.000000000000000000 ) ) ;
#33 = PERSON_AND_ORGANIZATION_ROLE ( 'creator' ) ;
#34 = VERTEX_POINT ( 'NONE', #8 ) ;
#35 = DIRECTION ( 'NONE',  ( -1.000000000000000000, -0.000000000000000000, -0.000000000000000000 ) ) ;
#36 = PERSON_AND_ORGANIZATION ( #100, #281 ) ;
#37 = PLANE ( 'NONE',  #200 ) ;
#38 = DIRECTION ( 'NONE',  ( 1.000000000000000000, 0.000000000000000000, 0.000000000000000000 ) ) ;
#39 = CARTESIAN_POINT ( 'NONE',  ( -3.000000000000000000, 1.555301434917138433E-15, -12.69999999999999929 ) ) ;
#40 = CARTESIAN_POINT ( 'NONE',  ( 1.500000000000000888, 0.000000000000000000, 6.349999999999999645 ) ) ;
#41 = CC_DESIGN_PERSON_AND_ORGANIZATION_ASSIGNMENT ( #140, #291, ( #207 ) ) ;
#42 = DIRECTION ( 'NONE',  ( -1.000000000000000000, -0.000000000000000000, -0.000000000000000000 ) ) ;
#43 = CALENDAR_DATE ( 2020, 22, 12 ) ;
#44 = PERSON_AND_ORGANIZATION ( #100, #281 ) ;
#45 = SHAPE_DEFINITION_REPRESENTATION ( #129, #166 ) ;
#46 = PERSON_AND_ORGANIZATION ( #100, #281 ) ;
#47 = UNCERTAINTY_MEASURE_WITH_UNIT (LENGTH_MEASURE( 1.000000000000000082E-05 ), #126, 'distance_accuracy_value', 'NONE');
#48 = VERTEX_POINT ( 'NONE', #324 ) ;
#49 = EDGE_CURVE ( 'NONE', #195, #76, #303, .T. ) ;
#50 = PRODUCT_DEFINITION_FORMATION_WITH_SPECIFIED_SOURCE ( 'ANY', '', #230, .NOT_KNOWN. ) ;
#51 = VERTEX_POINT ( 'NONE', #40 ) ;
#52 = EDGE_LOOP ( 'NONE', ( #83, #191 ) ) ;
#53 = FACE_OUTER_BOUND ( 'NONE', #138, .T. ) ;
#54 = DATE_AND_TIME ( #174, #285 ) ;
#55 = ORIENTED_EDGE ( 'NONE', *, *, #49, .F. ) ;
#56 = APPLICATION_CONTEXT ( 'configuration controlled 3d designs of mechanical parts and assemblies' ) ;
#57 = FACE_OUTER_BOUND ( 'NONE', #272, .T. ) ;
#58 = CARTESIAN_POINT ( 'NONE',  ( 3.000000000000000000, 1.555301434917138433E-15, -12.69999999999999929 ) ) ;
#59 = DATE_AND_TIME ( #267, #217 ) ;
#60 = CC_DESIGN_APPROVAL ( #292, ( #207 ) ) ;
#61 = FACE_BOUND ( 'NONE', #79, .T. ) ;
#62 = CARTESIAN_POINT ( 'NONE',  ( -3.000000000000000000, 6.349999999999999645, 0.000000000000000000 ) ) ;
#63 = ORIENTED_EDGE ( 'NONE', *, *, #92, .F. ) ;
#64 = CARTESIAN_POINT ( 'NONE',  ( -2.999999999999999556, 0.000000000000000000, 0.000000000000000000 ) ) ;
#65 = CARTESIAN_POINT ( 'NONE',  ( -1.614212418857619014, 7.776507174585692163E-16, -6.349999999999999645 ) ) ;
#66 = APPROVAL ( #245, 'UNSPECIFIED' ) ;
#67 = FACE_OUTER_BOUND ( 'NONE', #1, .T. ) ;
#68 = COORDINATED_UNIVERSAL_TIME_OFFSET ( 8, 0, .AHEAD. ) ;
#69 = CIRCLE ( 'NONE', #284, 12.69999999999999929 ) ;
#70 = MECHANICAL_CONTEXT ( 'NONE', #22, 'mechanical' ) ;
#71 = CC_DESIGN_DATE_AND_TIME_ASSIGNMENT ( #54, #271, ( #207 ) ) ;
#72 = DIRECTION ( 'NONE',  ( 1.000000000000000000, 0.000000000000000000, 0.000000000000000000 ) ) ;
#73 = APPLICATION_PROTOCOL_DEFINITION ( 'international standard', 'config_control_design', 1994, #22 ) ;
#74 = EDGE_CURVE ( 'NONE', #48, #213, #222, .T. ) ;
#75 = ORIENTED_EDGE ( 'NONE', *, *, #192, .T. ) ;
#76 = VERTEX_POINT ( 'NONE', #123 ) ;
#77 = VECTOR ( 'NONE', #84, 1000.000000000000000 ) ;
#78 = AXIS2_PLACEMENT_3D ( 'NONE', #23, #160, #72 ) ;
#79 = EDGE_LOOP ( 'NONE', ( #167, #161 ) ) ;
#80 = CARTESIAN_POINT ( 'NONE',  ( -1.500000000000000444, 0.000000000000000000, 0.000000000000000000 ) ) ;
#81 = PERSON_AND_ORGANIZATION ( #100, #281 ) ;
#82 = MANIFOLD_SOLID_BREP ( 'Ðý×', #139 ) ;
#83 = ORIENTED_EDGE ( 'NONE', *, *, #137, .T. ) ;
#84 = DIRECTION ( 'NONE',  ( -1.000000000000000000, -0.000000000000000000, -0.000000000000000000 ) ) ;
#85 = DIRECTION ( 'NONE',  ( -1.000000000000000000, -0.000000000000000000, -0.000000000000000000 ) ) ;
#86 = COORDINATED_UNIVERSAL_TIME_OFFSET ( 8, 0, .AHEAD. ) ;
#87 = CC_DESIGN_PERSON_AND_ORGANIZATION_ASSIGNMENT ( #46, #187, ( #230 ) ) ;
#88 = DIRECTION ( 'NONE',  ( 0.000000000000000000, 0.000000000000000000, 1.000000000000000000 ) ) ;
#89 = CARTESIAN_POINT ( 'NONE',  ( 1.500000000000000888, 7.776507174585692163E-16, -6.349999999999999645 ) ) ;
#90 = DIRECTION ( 'NONE',  ( 1.000000000000000000, 0.000000000000000000, 0.000000000000000000 ) ) ;
#91 = DIRECTION ( 'NONE',  ( 0.000000000000000000, 0.000000000000000000, 1.000000000000000000 ) ) ;
#92 = EDGE_CURVE ( 'NONE', #34, #334, #280, .T. ) ;
#93 = DIRECTION ( 'NONE',  ( 0.000000000000000000, 0.000000000000000000, 1.000000000000000000 ) ) ;
#94 = DIRECTION ( 'NONE',  ( 0.000000000000000000, 0.000000000000000000, 1.000000000000000000 ) ) ;
#95 = LINE ( 'NONE', #179, #225 ) ;
#96 = AXIS2_PLACEMENT_3D ( 'NONE', #16, #19, #155 ) ;
#97 = ADVANCED_FACE ( 'NONE', ( #57 ), #196, .F. ) ;
#98 = AXIS2_PLACEMENT_3D ( 'NONE', #180, #229, #249 ) ;
#99 = AXIS2_PLACEMENT_3D ( 'NONE', #5, #298, #94 ) ;
#100 = PERSON ( 'UNSPECIFIED', 'UNSPECIFIED', 'UNSPECIFIED', ('UNSPECIFIED'), ('UNSPECIFIED'), ('UNSPECIFIED') ) ;
#101 = CC_DESIGN_PERSON_AND_ORGANIZATION_ASSIGNMENT ( #110, #33, ( #50 ) ) ;
#102 = APPLICATION_PROTOCOL_DEFINITION ( 'international standard', 'config_control_design', 1994, #56 ) ;
#103 = DATE_AND_TIME ( #132, #210 ) ;
#104 = CIRCLE ( 'NONE', #125, 6.349999999999999645 ) ;
#105 = ORIENTED_EDGE ( 'NONE', *, *, #92, .T. ) ;
#106 = VERTEX_POINT ( 'NONE', #243 ) ;
#107 = ORIENTED_EDGE ( 'NONE', *, *, #49, .T. ) ;
#108 = CYLINDRICAL_SURFACE ( 'NONE', #130, 6.349999999999999645 ) ;
#109 = AXIS2_PLACEMENT_3D ( 'NONE', #320, #145, #226 ) ;
#110 = PERSON_AND_ORGANIZATION ( #100, #281 ) ;
#111 =( GEOMETRIC_REPRESENTATION_CONTEXT ( 3 ) GLOBAL_UNCERTAINTY_ASSIGNED_CONTEXT ( ( #47 ) ) GLOBAL_UNIT_ASSIGNED_CONTEXT ( ( #126, #301, #122 ) ) REPRESENTATION_CONTEXT ( 'NONE', 'WORKASPACE' ) );
#112 = ORIENTED_EDGE ( 'NONE', *, *, #137, .F. ) ;
#113 = ORIENTED_EDGE ( 'NONE', *, *, #256, .F. ) ;
#114 = PERSON_AND_ORGANIZATION_ROLE ( 'design_supplier' ) ;
#115 = ORIENTED_EDGE ( 'NONE', *, *, #330, .F. ) ;
#116 = CYLINDRICAL_SURFACE ( 'NONE', #162, 12.69999999999999929 ) ;
#117 = DIRECTION ( 'NONE',  ( -0.000000000000000000, 0.000000000000000000, 1.000000000000000000 ) ) ;
#118 = AXIS2_PLACEMENT_3D ( 'NONE', #270, #146, #227 ) ;
#119 = APPROVAL_PERSON_ORGANIZATION ( #36, #292, #6 ) ;
#120 = LINE ( 'NONE', #253, #209 ) ;
#121 = DIRECTION ( 'NONE',  ( 0.000000000000000000, 0.000000000000000000, 1.000000000000000000 ) ) ;
#122 =( NAMED_UNIT ( * ) SI_UNIT ( $, .STERADIAN. ) SOLID_ANGLE_UNIT ( ) );
#123 = CARTESIAN_POINT ( 'NONE',  ( 3.000000000000000000, 0.000000000000000000, 12.69999999999999929 ) ) ;
#124 = DIRECTION ( 'NONE',  ( -1.000000000000000000, -0.000000000000000000, -0.000000000000000000 ) ) ;
#125 = AXIS2_PLACEMENT_3D ( 'NONE', #64, #35, #240 ) ;
#126 =( LENGTH_UNIT ( ) NAMED_UNIT ( * ) SI_UNIT ( .MILLI., .METRE. ) );
#127 = APPROVAL ( #26, 'UNSPECIFIED' ) ;
#128 = AXIS2_PLACEMENT_3D ( 'NONE', #273, #38, #12 ) ;
#129 = PRODUCT_DEFINITION_SHAPE ( 'NONE', 'NONE',  #165 ) ;
#130 = AXIS2_PLACEMENT_3D ( 'NONE', #215, #168, #266 ) ;
#131 = CC_DESIGN_SECURITY_CLASSIFICATION ( #207, ( #50 ) ) ;
#132 = CALENDAR_DATE ( 2020, 22, 12 ) ;
#133 = APPROVAL_ROLE ( '' ) ;
#134 = ORIENTED_EDGE ( 'NONE', *, *, #242, .T. ) ;
#135 = ORIENTED_EDGE ( 'NONE', *, *, #242, .F. ) ;
#136 = VERTEX_POINT ( 'NONE', #205 ) ;
#137 = EDGE_CURVE ( 'NONE', #106, #238, #156, .T. ) ;
#138 = EDGE_LOOP ( 'NONE', ( #193, #164, #237, #218 ) ) ;
#139 = CLOSED_SHELL ( 'NONE', ( #299, #268, #252, #327, #97, #282, #208, #228, #30, #158 ) ) ;
#140 = PERSON_AND_ORGANIZATION ( #100, #281 ) ;
#141 = AXIS2_PLACEMENT_3D ( 'NONE', #276, #10, #117 ) ;
#142 = CARTESIAN_POINT ( 'NONE',  ( 3.000000000000000000, 0.000000000000000000, 0.000000000000000000 ) ) ;
#143 = FACE_OUTER_BOUND ( 'NONE', #27, .T. ) ;
#144 = CALENDAR_DATE ( 2020, 22, 12 ) ;
#145 = DIRECTION ( 'NONE',  ( -1.000000000000000000, 0.000000000000000000, -0.000000000000000000 ) ) ;
#146 = DIRECTION ( 'NONE',  ( -1.000000000000000000, -0.000000000000000000, -0.000000000000000000 ) ) ;
#147 = DIRECTION ( 'NONE',  ( -1.000000000000000000, -0.000000000000000000, -0.000000000000000000 ) ) ;
#148 = CARTESIAN_POINT ( 'NONE',  ( 3.000000000000000888, 0.000000000000000000, 0.000000000000000000 ) ) ;
#149 = CYLINDRICAL_SURFACE ( 'NONE', #96, 12.69999999999999929 ) ;
#150 = VECTOR ( 'NONE', #42, 1000.000000000000000 ) ;
#151 = FACE_OUTER_BOUND ( 'NONE', #286, .T. ) ;
#152 = DESIGN_CONTEXT ( 'detailed design', #56, 'design' ) ;
#153 = DIRECTION ( 'NONE',  ( -1.000000000000000000, -0.000000000000000000, -0.000000000000000000 ) ) ;
#154 = EDGE_CURVE ( 'NONE', #34, #188, #297, .T. ) ;
#155 = DIRECTION ( 'NONE',  ( 0.000000000000000000, 0.000000000000000000, 1.000000000000000000 ) ) ;
#156 = CIRCLE ( 'NONE', #307, 12.69999999999999929 ) ;
#157 = VECTOR ( 'NONE', #124, 1000.000000000000000 ) ;
#158 = ADVANCED_FACE ( 'NONE', ( #151 ), #7, .F. ) ;
#159 = PERSON_AND_ORGANIZATION_ROLE ( 'creator' ) ;
#160 = DIRECTION ( 'NONE',  ( 0.000000000000000000, 0.000000000000000000, 1.000000000000000000 ) ) ;
#161 = ORIENTED_EDGE ( 'NONE', *, *, #260, .T. ) ;
#162 = AXIS2_PLACEMENT_3D ( 'NONE', #223, #322, #91 ) ;
#163 = APPROVAL_PERSON_ORGANIZATION ( #316, #66, #296 ) ;
#164 = ORIENTED_EDGE ( 'NONE', *, *, #74, .T. ) ;
#165 = PRODUCT_DEFINITION ( 'UNKNOWN', '', #50, #152 ) ;
#166 = ADVANCED_BREP_SHAPE_REPRESENTATION ( 'Q-OZHWP-R2-12.7-266-M', ( #82, #78 ), #111 ) ;
#167 = ORIENTED_EDGE ( 'NONE', *, *, #256, .T. ) ;
#168 = DIRECTION ( 'NONE',  ( -1.000000000000000000, -0.000000000000000000, -0.000000000000000000 ) ) ;
#169 = APPROVAL_STATUS ( 'not_yet_approved' ) ;
#170 = EDGE_LOOP ( 'NONE', ( #236, #55 ) ) ;
#171 = DIRECTION ( 'NONE',  ( -1.000000000000000000, -0.000000000000000000, -0.000000000000000000 ) ) ;
#172 = DIRECTION ( 'NONE',  ( 0.000000000000000000, 0.000000000000000000, -1.000000000000000000 ) ) ;
#173 = CIRCLE ( 'NONE', #184, 6.349999999999999645 ) ;
#174 = CALENDAR_DATE ( 2020, 22, 12 ) ;
#175 = CC_DESIGN_PERSON_AND_ORGANIZATION_ASSIGNMENT ( #44, #159, ( #165 ) ) ;
#176 = FACE_OUTER_BOUND ( 'NONE', #52, .T. ) ;
#177 = DIRECTION ( 'NONE',  ( -1.000000000000000000, -0.000000000000000000, -0.000000000000000000 ) ) ;
#178 = CYLINDRICAL_SURFACE ( 'NONE', #251, 6.349999999999999645 ) ;
#179 = CARTESIAN_POINT ( 'NONE',  ( -1.614212418857619014, 0.000000000000000000, 6.349999999999999645 ) ) ;
#180 = CARTESIAN_POINT ( 'NONE',  ( -1.614212418857619014, 0.000000000000000000, 0.000000000000000000 ) ) ;
#181 = CARTESIAN_POINT ( 'NONE',  ( -1.614212418857619014, 0.000000000000000000, 12.69999999999999929 ) ) ;
#182 = PLANE ( 'NONE',  #141 ) ;
#183 = CARTESIAN_POINT ( 'NONE',  ( -1.500000000000000444, 0.000000000000000000, 6.349999999999999645 ) ) ;
#184 = AXIS2_PLACEMENT_3D ( 'NONE', #221, #177, #15 ) ;
#185 = CC_DESIGN_APPROVAL ( #127, ( #165 ) ) ;
#186 = EDGE_CURVE ( 'NONE', #334, #136, #120, .T. ) ;
#187 = PERSON_AND_ORGANIZATION_ROLE ( 'design_owner' ) ;
#188 = VERTEX_POINT ( 'NONE', #197 ) ;
#189 = ORIENTED_EDGE ( 'NONE', *, *, #74, .F. ) ;
#190 = DATE_AND_TIME ( #43, #20 ) ;
#191 = ORIENTED_EDGE ( 'NONE', *, *, #212, .T. ) ;
#192 = EDGE_CURVE ( 'NONE', #334, #34, #257, .T. ) ;
#193 = ORIENTED_EDGE ( 'NONE', *, *, #260, .F. ) ;
#194 = SECURITY_CLASSIFICATION_LEVEL ( 'unclassified' ) ;
#195 = VERTEX_POINT ( 'NONE', #58 ) ;
#196 = CYLINDRICAL_SURFACE ( 'NONE', #98, 6.349999999999999645 ) ;
#197 = CARTESIAN_POINT ( 'NONE',  ( -2.999999999999999556, 7.776507174585692163E-16, -6.349999999999999645 ) ) ;
#198 = DATE_AND_TIME ( #144, #264 ) ;
#199 = CC_DESIGN_PERSON_AND_ORGANIZATION_ASSIGNMENT ( #81, #114, ( #50 ) ) ;
#200 = AXIS2_PLACEMENT_3D ( 'NONE', #62, #290, #172 ) ;
#201 = CARTESIAN_POINT ( 'NONE',  ( -3.000000000000000000, 0.000000000000000000, 0.000000000000000000 ) ) ;
#202 = DIRECTION ( 'NONE',  ( 0.000000000000000000, 0.000000000000000000, 1.000000000000000000 ) ) ;
#203 = DIRECTION ( 'NONE',  ( 0.000000000000000000, 0.000000000000000000, -1.000000000000000000 ) ) ;
#204 = FACE_OUTER_BOUND ( 'NONE', #265, .T. ) ;
#205 = CARTESIAN_POINT ( 'NONE',  ( -2.999999999999999556, 0.000000000000000000, 6.349999999999999645 ) ) ;
#206 = DIRECTION ( 'NONE',  ( -1.000000000000000000, -0.000000000000000000, -0.000000000000000000 ) ) ;
#207 = SECURITY_CLASSIFICATION ( '', '', #194 ) ;
#208 = ADVANCED_FACE ( 'NONE', ( #9, #176 ), #37, .F. ) ;
#209 = VECTOR ( 'NONE', #85, 1000.000000000000000 ) ;
#210 = LOCAL_TIME ( 17, 13, 47.00000000000000000, #331 ) ;
#211 = ORIENTED_EDGE ( 'NONE', *, *, #154, .T. ) ;
#212 = EDGE_CURVE ( 'NONE', #238, #106, #233, .T. ) ;
#213 = VERTEX_POINT ( 'NONE', #89 ) ;
#214 = ORIENTED_EDGE ( 'NONE', *, *, #17, .F. ) ;
#215 = CARTESIAN_POINT ( 'NONE',  ( -1.614212418857619014, 0.000000000000000000, 0.000000000000000000 ) ) ;
#216 = DATE_TIME_ROLE ( 'creation_date' ) ;
#217 = LOCAL_TIME ( 17, 13, 47.00000000000000000, #86 ) ;
#218 = ORIENTED_EDGE ( 'NONE', *, *, #306, .F. ) ;
#219 = LINE ( 'NONE', #181, #157 ) ;
#220 = COORDINATED_UNIVERSAL_TIME_OFFSET ( 8, 0, .AHEAD. ) ;
#221 = CARTESIAN_POINT ( 'NONE',  ( 1.500000000000000888, 0.000000000000000000, 0.000000000000000000 ) ) ;
#222 = LINE ( 'NONE', #65, #77 ) ;
#223 = CARTESIAN_POINT ( 'NONE',  ( -1.614212418857619014, 0.000000000000000000, 0.000000000000000000 ) ) ;
#224 = CARTESIAN_POINT ( 'NONE',  ( -1.614212418857619014, 1.555301434917138433E-15, -12.69999999999999929 ) ) ;
#225 = VECTOR ( 'NONE', #153, 1000.000000000000000 ) ;
#226 = DIRECTION ( 'NONE',  ( -0.000000000000000000, 0.000000000000000000, 1.000000000000000000 ) ) ;
#227 = DIRECTION ( 'NONE',  ( 0.000000000000000000, 0.000000000000000000, 1.000000000000000000 ) ) ;
#228 = ADVANCED_FACE ( 'NONE', ( #247 ), #116, .T. ) ;
#229 = DIRECTION ( 'NONE',  ( -1.000000000000000000, -0.000000000000000000, -0.000000000000000000 ) ) ;
#230 = PRODUCT ( 'Q-OZHWP-R2-12.7-266-M', 'Q-OZHWP-R2-12.7-266-M', '', ( #70 ) ) ;
#231 = CIRCLE ( 'NONE', #28, 6.349999999999999645 ) ;
#232 = COORDINATED_UNIVERSAL_TIME_OFFSET ( 8, 0, .AHEAD. ) ;
#233 = CIRCLE ( 'NONE', #118, 12.69999999999999929 ) ;
#234 = ORIENTED_EDGE ( 'NONE', *, *, #154, .F. ) ;
#235 = EDGE_CURVE ( 'NONE', #51, #213, #259, .T. ) ;
#236 = ORIENTED_EDGE ( 'NONE', *, *, #314, .F. ) ;
#237 = ORIENTED_EDGE ( 'NONE', *, *, #17, .T. ) ;
#238 = VERTEX_POINT ( 'NONE', #39 ) ;
#239 = PLANE ( 'NONE',  #109 ) ;
#240 = DIRECTION ( 'NONE',  ( 0.000000000000000000, 0.000000000000000000, 1.000000000000000000 ) ) ;
#241 = APPROVAL_DATE_TIME ( #59, #66 ) ;
#242 = EDGE_CURVE ( 'NONE', #136, #188, #104, .T. ) ;
#243 = CARTESIAN_POINT ( 'NONE',  ( -3.000000000000000000, 0.000000000000000000, 12.69999999999999929 ) ) ;
#244 = DIRECTION ( 'NONE',  ( -1.000000000000000000, -0.000000000000000000, -0.000000000000000000 ) ) ;
#245 = APPROVAL_STATUS ( 'not_yet_approved' ) ;
#246 = FACE_OUTER_BOUND ( 'NONE', #170, .T. ) ;
#247 = FACE_OUTER_BOUND ( 'NONE', #333, .T. ) ;
#248 = DIRECTION ( 'NONE',  ( 0.000000000000000000, 0.000000000000000000, 1.000000000000000000 ) ) ;
#249 = DIRECTION ( 'NONE',  ( 0.000000000000000000, 0.000000000000000000, 1.000000000000000000 ) ) ;
#250 = DIRECTION ( 'NONE',  ( -1.000000000000000000, -0.000000000000000000, -0.000000000000000000 ) ) ;
#251 = AXIS2_PLACEMENT_3D ( 'NONE', #274, #32, #202 ) ;
#252 = ADVANCED_FACE ( 'NONE', ( #53 ), #178, .F. ) ;
#253 = CARTESIAN_POINT ( 'NONE',  ( -1.614212418857619014, 0.000000000000000000, 6.349999999999999645 ) ) ;
#254 = FACE_OUTER_BOUND ( 'NONE', #31, .T. ) ;
#255 = DIRECTION ( 'NONE',  ( -1.000000000000000000, -0.000000000000000000, -0.000000000000000000 ) ) ;
#256 = EDGE_CURVE ( 'NONE', #289, #48, #308, .T. ) ;
#257 = CIRCLE ( 'NONE', #332, 6.349999999999999645 ) ;
#258 = DIRECTION ( 'NONE',  ( -1.000000000000000000, -0.000000000000000000, -0.000000000000000000 ) ) ;
#259 = CIRCLE ( 'NONE', #2, 6.349999999999999645 ) ;
#260 = EDGE_CURVE ( 'NONE', #48, #289, #231, .T. ) ;
#261 = ORIENTED_EDGE ( 'NONE', *, *, #314, .T. ) ;
#262 = AXIS2_PLACEMENT_3D ( 'NONE', #279, #255, #14 ) ;
#263 = ORIENTED_EDGE ( 'NONE', *, *, #186, .T. ) ;
#264 = LOCAL_TIME ( 17, 13, 47.00000000000000000, #232 ) ;
#265 = EDGE_LOOP ( 'NONE', ( #234, #105, #263, #134 ) ) ;
#266 = DIRECTION ( 'NONE',  ( 0.000000000000000000, 0.000000000000000000, 1.000000000000000000 ) ) ;
#267 = CALENDAR_DATE ( 2020, 22, 12 ) ;
#268 = ADVANCED_FACE ( 'NONE', ( #143 ), #108, .F. ) ;
#269 = EDGE_LOOP ( 'NONE', ( #135, #294 ) ) ;
#270 = CARTESIAN_POINT ( 'NONE',  ( -3.000000000000000000, 0.000000000000000000, 0.000000000000000000 ) ) ;
#271 = DATE_TIME_ROLE ( 'classification_date' ) ;
#272 = EDGE_LOOP ( 'NONE', ( #189, #113, #311, #318 ) ) ;
#273 = CARTESIAN_POINT ( 'NONE',  ( -1.500000000000000444, 6.349999999999999645, 0.000000000000000000 ) ) ;
#274 = CARTESIAN_POINT ( 'NONE',  ( -1.614212418857619014, 0.000000000000000000, 0.000000000000000000 ) ) ;
#275 = EDGE_CURVE ( 'NONE', #76, #106, #219, .T. ) ;
#276 = CARTESIAN_POINT ( 'NONE',  ( 1.500000000000000444, 6.349999999999999645, 0.000000000000000000 ) ) ;
#277 = ORIENTED_EDGE ( 'NONE', *, *, #186, .F. ) ;
#278 = LINE ( 'NONE', #224, #150 ) ;
#279 = CARTESIAN_POINT ( 'NONE',  ( -2.999999999999999556, 0.000000000000000000, 0.000000000000000000 ) ) ;
#280 = CIRCLE ( 'NONE', #11, 6.349999999999999645 ) ;
#281 = ORGANIZATION ( 'UNSPECIFIED', 'UNSPECIFIED', '' ) ;
#282 = ADVANCED_FACE ( 'NONE', ( #204 ), #325, .F. ) ;
#283 = PERSON_AND_ORGANIZATION ( #100, #281 ) ;
#284 = AXIS2_PLACEMENT_3D ( 'NONE', #323, #258, #302 ) ;
#285 = LOCAL_TIME ( 17, 13, 47.00000000000000000, #220 ) ;
#286 = EDGE_LOOP ( 'NONE', ( #312, #63 ) ) ;
#287 = ORIENTED_EDGE ( 'NONE', *, *, #235, .F. ) ;
#288 = AXIS2_PLACEMENT_3D ( 'NONE', #328, #206, #248 ) ;
#289 = VERTEX_POINT ( 'NONE', #304 ) ;
#290 = DIRECTION ( 'NONE',  ( 1.000000000000000000, 0.000000000000000000, 0.000000000000000000 ) ) ;
#291 = PERSON_AND_ORGANIZATION_ROLE ( 'classification_officer' ) ;
#292 = APPROVAL ( #169, 'UNSPECIFIED' ) ;
#293 = ORIENTED_EDGE ( 'NONE', *, *, #212, .F. ) ;
#294 = ORIENTED_EDGE ( 'NONE', *, *, #335, .F. ) ;
#295 = DIRECTION ( 'NONE',  ( 1.000000000000000000, 0.000000000000000000, 0.000000000000000000 ) ) ;
#296 = APPROVAL_ROLE ( '' ) ;
#297 = LINE ( 'NONE', #300, #18 ) ;
#298 = DIRECTION ( 'NONE',  ( -1.000000000000000000, -0.000000000000000000, -0.000000000000000000 ) ) ;
#299 = ADVANCED_FACE ( 'NONE', ( #67 ), #149, .T. ) ;
#300 = CARTESIAN_POINT ( 'NONE',  ( -1.614212418857619014, 7.776507174585692163E-16, -6.349999999999999645 ) ) ;
#301 =( NAMED_UNIT ( * ) PLANE_ANGLE_UNIT ( ) SI_UNIT ( $, .RADIAN. ) );
#302 = DIRECTION ( 'NONE',  ( 0.000000000000000000, 0.000000000000000000, 1.000000000000000000 ) ) ;
#303 = CIRCLE ( 'NONE', #21, 12.69999999999999929 ) ;
#304 = CARTESIAN_POINT ( 'NONE',  ( 3.000000000000000888, 0.000000000000000000, 6.349999999999999645 ) ) ;
#305 = PRODUCT_RELATED_PRODUCT_CATEGORY ( 'detail', '', ( #230 ) ) ;
#306 = EDGE_CURVE ( 'NONE', #289, #51, #95, .T. ) ;
#307 = AXIS2_PLACEMENT_3D ( 'NONE', #201, #171, #88 ) ;
#308 = CIRCLE ( 'NONE', #99, 6.349999999999999645 ) ;
#309 = APPROVAL_PERSON_ORGANIZATION ( #283, #127, #133 ) ;
#310 = APPROVAL_DATE_TIME ( #103, #127 ) ;
#311 = ORIENTED_EDGE ( 'NONE', *, *, #306, .T. ) ;
#312 = ORIENTED_EDGE ( 'NONE', *, *, #192, .F. ) ;
#313 = ORIENTED_EDGE ( 'NONE', *, *, #335, .T. ) ;
#314 = EDGE_CURVE ( 'NONE', #76, #195, #69, .T. ) ;
#315 = DIRECTION ( 'NONE',  ( 0.000000000000000000, 0.000000000000000000, -1.000000000000000000 ) ) ;
#316 = PERSON_AND_ORGANIZATION ( #100, #281 ) ;
#317 = ORIENTED_EDGE ( 'NONE', *, *, #275, .T. ) ;
#318 = ORIENTED_EDGE ( 'NONE', *, *, #235, .T. ) ;
#319 = DIRECTION ( 'NONE',  ( 0.000000000000000000, 0.000000000000000000, 1.000000000000000000 ) ) ;
#320 = CARTESIAN_POINT ( 'NONE',  ( 3.000000000000000000, 12.69999999999999929, 0.000000000000000000 ) ) ;
#321 = CARTESIAN_POINT ( 'NONE',  ( -1.500000000000000444, 0.000000000000000000, 0.000000000000000000 ) ) ;
#322 = DIRECTION ( 'NONE',  ( -1.000000000000000000, -0.000000000000000000, -0.000000000000000000 ) ) ;
#323 = CARTESIAN_POINT ( 'NONE',  ( 3.000000000000000000, 0.000000000000000000, 0.000000000000000000 ) ) ;
#324 = CARTESIAN_POINT ( 'NONE',  ( 3.000000000000000888, 7.776507174585692163E-16, -6.349999999999999645 ) ) ;
#325 = CYLINDRICAL_SURFACE ( 'NONE', #288, 6.349999999999999645 ) ;
#326 = CIRCLE ( 'NONE', #262, 6.349999999999999645 ) ;
#327 = ADVANCED_FACE ( 'NONE', ( #254 ), #182, .F. ) ;
#328 = CARTESIAN_POINT ( 'NONE',  ( -1.614212418857619014, 0.000000000000000000, 0.000000000000000000 ) ) ;
#329 = CC_DESIGN_APPROVAL ( #66, ( #50 ) ) ;
#330 = EDGE_CURVE ( 'NONE', #195, #238, #278, .T. ) ;
#331 = COORDINATED_UNIVERSAL_TIME_OFFSET ( 8, 0, .AHEAD. ) ;
#332 = AXIS2_PLACEMENT_3D ( 'NONE', #80, #295, #315 ) ;
#333 = EDGE_LOOP ( 'NONE', ( #115, #107, #317, #293 ) ) ;
#334 = VERTEX_POINT ( 'NONE', #183 ) ;
#335 = EDGE_CURVE ( 'NONE', #188, #136, #326, .T. ) ;
ENDSEC;
END-ISO-10303-21;
